Ocena wątku:
  • 0 głosów - średnia: 0
  • 1
  • 2
  • 3
  • 4
  • 5
Śniadanie z Bogiem
#61
Właściwie to pewnie ten akord się nazywa inaczej w tym układzie, może to się powinno zapisać jako E4 albo jeszcze inaczej - ale załapiesz ideę i bez tego pewnie. A jak wejdzie tu Tomek Susmęd czy Broda, pewnie napiszą poprawną nazwę. Smile
Odpowiedz
#62
Poprosiłem mojego nauczyciela o rozpisanie tego utworku na taby. Po dwóch miesiącach otrzymałem tyle:
-----0__1---3---3--0--5---1-------0--1------------------0__1-----3---3------5----1-------1-------1----------1-------0__1---4--3--1-------0--1----------0__1--
---3--------3---2---------3-----3----0------2---3-----3-----------3---2---5-------3---------------0------2---3-----3---------3--2--3-----3----0--2--3--3-------
------------3---3---------2---2------1------0---3-----------------3---3------------2----2-----2---1------2---2---------------4--3--2---2------1--2--3-----------
------------0---2---------0----------0------2---3-----------------0---2------------0---------------0-----2---0---------------3--2--0----------0--2--3------------
---------------------------------------------0--1----------------------------------------------------------0-----------------------------------------0--1------------
----------3----------------------------------------------------3---------------------------------------------------------------------------------------------------

---------3----------0------ Legenda:
---------2----------2----- __-Legato
-----2---3----------2-----
-----0---2-----------------
-----2-------1--0----------
--0------------------------

Jeszcze kawałeczek łatwo dzieki temu rozpracowac. Taby bardzo dobre, odrazu mówie iż nie mam innych, gdy bede miał udostępnie.
Odpowiedz
#63
Tak się wygodniej czyta:


Kod:
-----0__1---3---3--0--5---1-------0--1------------------0__1-----3---3------5----1-------1-------1----------1-------0__1---4--3--1-------0--1----------0__1--
---3--------3---2---------3-----3----0------2---3-----3-----------3---2---5-------3---------------0------2---3-----3---------3--2--3-----3----0--2--3--3-------
------------3---3---------2---2------1------0---3-----------------3---3------------2----2-----2---1------2---2---------------4--3--2---2------1--2--3-----------
------------0---2---------0----------0------2---3-----------------0---2------------0---------------0-----2---0---------------3--2--0----------0--2--3------------
---------------------------------------------0--1----------------------------------------------------------0-----------------------------------------0--1------------
----------3----------------------------------------------------3---------------------------------------------------------------------------------------------------

---------3----------0------ Legenda:
---------2----------2----- __-Legato
-----2---3----------2-----
-----0---2-----------------
-----2-------1--0----------
--0------------------------
"Wszyscyśmy z płócien
Rembrandta:
To tylko kwestia
Światła ; "
Odpowiedz
#64
Poprawione:
Kod:
-----0__1---3---3--0--5---1-------0--1------------------0__1------3---3-----5------1-------1------1----------1------0__1-----4--3--1-------0--1-----------0__1--
---3--------3---2---------3-----3----0------2---3-----3-----------3---2---5--------3--------------0------2---3----3----------3--2--3-----3----0--2--3---3-------
------------3---3---------2---2------1------0---3-----------------3---3------------2----2-----2---1------2---2---------------4--3--2---2------1--2--3-----------
------------0---2---------0----------0------2---3-----------------0---2------------0--------------0------2---0---------------3--2--0----------0--2--3-----------
--------------------------------------------0---1--------------------------------------------------------0---------------------------------------0--1-----------
---------3-----------------------------------------------------3------------------------------------------------------------------------------------------------

---------3----------0------ Legenda:
---------2----------2----- __-Legato
-----2---3----------2-----
-----0---2-----------------
-----2-------1--0----------
--0------------------------
Odpowiedz


Podobne wątki
Wątek: Autor Odpowiedzi: Wyświetleń: Ostatni post
  sniadanie z bogiem barlo 16 6,142 09-20-2006, 07:54 PM
Ostatni post: ann

Skocz do:


Użytkownicy przeglądający ten wątek: 1 gości