Forum o Jacku Kaczmarskim

Pełna wersja: Rondo czyli piosenka o kacu gigancie
Aktualnie przeglądasz uproszczoną wersję forum. Kliknij tutaj, by zobaczyć wersję z pełnym formatowaniem.
Czy ma ktoś taby do Ronda? Sam nie mogę rozgryźć ...
Owszem, Smile
Podaj maila to Ci wyślę, bo rozpisałem w Guitar Pro.
szemhazaj napisał(a):Owszem, Smile
Podaj maila to Ci wyślę, bo rozpisałem w Guitar Pro.

Wielkie dzięki. Zajrzyj do prywatnych wiadomości po kontakt.
Proponuje upublicznić te taby dla potomności Smile Jakby co służę serwerem u siebie ....
Wiem, ze będzie lekki offtop, ale z góry przepraszam, bo nie mogę się powstrzymać od komentarza:
Aż miło zobaczyć taki temat na forum, 3 posty i już jakaś osoba ma problem rozwiązany.
Jakbyś chciał szemhazaj, to możesz mi to przesłać tą piosenką co ja ,,Kaczmarski mimochodem napisał'', a ja zrobię z tego tabulaturkę w Wordzie i ci odeśle, a ty wyślesz, żeby na stronie umieścili, bo nie każdy ma Guitar Pro.
Pozdrawiam
W txt najlepiej Smile
MasximusDecimus, wysłałem Ci na maila taba, jak uznasz, że jest dobry to możesz go wrzucić.
MasximusDecimus napisał(a):Aż miło zobaczyć taki temat na forum, 3 posty i już jakaś osoba ma problem rozwiązany.
Trochę cierpliwości i okazuje się, że są jeszcze dobrzy ludzie z tabami…
Zacząłem grać i chyba wszystko się zgadza. Żeby w pełni ocenić muszę nabrać prędkości, bo rondo idzie w dużym tempie.

Przemek napisał(a):Proponuje upublicznić te taby dla potomności Smile Jakby co służę serwerem u siebie ....
Najlepiej text wrzucić na forum a wersję w GuitarPro można dać na główną stronę Twórczość->Myzyka->Taby. Linki z forum są ulotne i kilkakrotnie zaprowadziły mnie do nikąd. Nadal mam nadzieję że pełne taby na Wykopaliska zostną odzyskane Smile . Dla tych co nie mają GuitarPro szczerze polecam darmową (open source) wersję TuxGuitar, która akceptuje gp5 format.
||-----------------|-----------------|-----------------|-----------------||
||---4---4---4---4-|---4---4---4---4-|---4---4---4---4-|---4---4---4---4-||
||---4---4---4---4-|---4---4---4---4-|---4---4---4---4-|---4---4---4---4-||
||-----------------|-----------------|-----------------|-----------------||
||-6---------------|-6-------6-------|-6-------6-------|-6-------6-------||
||-----4---4---4---|-----4-------4---|-----4-------4---|-----4-------4---||



||-----------------|-----------------|---4---4---4---4-|---4---4---4---4-||
||---4---4---4---4-|---4---4---4---4-|---5---5---5---5-|---5---5---5---5-||
||---4---4---4---4-|---4---4---4---4-|-----------------|-----------------||
||-----------------|-----------------|-------------4---|-----------------||
||-------------4---|-6-------6-------|-4---6---7-------|-6-------6-------||
||-4---6---7-------|-----4-------4---|-----------------|-----4-------4---||




||---6---6---6---6-|---6---6---6---6-|---7---7---7---7-|---7---6---------||
||---7---7---7---7-|---7---7---7---7-|---9---9---9---9-|---9---8---4---4-||
||-----------------|-----------------|-----------------|-----------4---4-||
||-------------6---|-8-------8-------|-----9-------6---|-----------------||
||-6---8---9-------|-----6-------6---|-7-------4-------|-7---6-------6---||
||-----------------|-----------------|-----------------|---------4-------||



||-^7-^4-|-^7-^6-^4|---4---4---4---4-|-----------------|---6---6---6---6-||
||-|9-|5-|-|9-|8-|4|---5---5---5---5-|---4---4---4---4-|---8---8---8---8-||
||-|9-|6-|-|9-|6-|4|-----------------|---4---4---4---4-|-----------------||
||-|9-|6-|-|9-|8-|6|-----------------|-----------------|-----8-------8---||
||-|7-|4-|-|7-|6-|6|-----4-------4---|-6-------6-------|-6-------6-------||
||-------|-------|4|-4-------4-------|-----4-------4---|-----------------||




||---6---6---6---6-|-----------------|---4---4---4---4-|---7---7---4---4-||
||---8---8---8---8-|---4---4---4---4-|---5---5---5---5-|---9---9---5---5-||
||-----------------|---4---4---4---4-|-----------------|-----------------||
||-----8-------8---|-----------------|-----------------|-----9-------6---||
||-6-------6-------|-6-------6-------|-4-------4-------|-7-------4-------||
||-----------------|-----4-------4---|-----4------4----|-----------------||



||---7---7---4---4-||
||---9---9---5---5-||
||-----------------||
||-----9-------8---||
||-7-------6-------||
||-----------------||


Podziękujcie Masximusowi za rozpisanie tego w txtSmile

Jak coś będzie nie jasne to piszcie. (jak ktoś chce to w gp też można)
Przynajmniej mi się wieczorem nie nudziło i to ja tobie dziękuję, bo przynajmniej mam taby do tej piosenki.

Nie wiem dlaczego, tak krzywo wyszło na forum, może jest inna czcionka.

Ale jak skopiujecie do Worda, ewentualnie do Notatnika , jeśli ktoś nie ma Worda, to wszystko ładnie jest.
Trzeba tak i jest równo Smile
Kod:
||-----------------|-----------------|-----------------|-----------------||
||---4---4---4---4-|---4---4---4---4-|---4---4---4---4-|---4---4---4---4-||
||---4---4---4---4-|---4---4---4---4-|---4---4---4---4-|---4---4---4---4-||
||-----------------|-----------------|-----------------|-----------------||
||-6---------------|-6-------6-------|-6-------6-------|-6-------6-------||
||-----4---4---4---|-----4-------4---|-----4-------4---|-----4-------4---||



||-----------------|-----------------|---4---4---4---4-|---4---4---4---4-||
||---4---4---4---4-|---4---4---4---4-|---5---5---5---5-|---5---5---5---5-||
||---4---4---4---4-|---4---4---4---4-|-----------------|-----------------||
||-----------------|-----------------|-------------4---|-----------------||
||-------------4---|-6-------6-------|-4---6---7-------|-6-------6-------||
||-4---6---7-------|-----4-------4---|-----------------|-----4-------4---||




||---6---6---6---6-|---6---6---6---6-|---7---7---7---7-|---7---6---------||
||---7---7---7---7-|---7---7---7---7-|---9---9---9---9-|---9---8---4---4-||
||-----------------|-----------------|-----------------|-----------4---4-||
||-------------6---|-8-------8-------|-----9-------6---|-----------------||
||-6---8---9-------|-----6-------6---|-7-------4-------|-7---6-------6---||
||-----------------|-----------------|-----------------|---------4-------||



||-^7-^4-|-^7-^6-^4|---4---4---4---4-|-----------------|---6---6---6---6-||
||-|9-|5-|-|9-|8-|4|---5---5---5---5-|---4---4---4---4-|---8---8---8---8-||
||-|9-|6-|-|9-|6-|4|-----------------|---4---4---4---4-|-----------------||
||-|9-|6-|-|9-|8-|6|-----------------|-----------------|-----8-------8---||
||-|7-|4-|-|7-|6-|6|-----4-------4---|-6-------6-------|-6-------6-------||
||-------|-------|4|-4-------4-------|-----4-------4---|-----------------||




||---6---6---6---6-|-----------------|---4---4---4---4-|---7---7---4---4-||
||---8---8---8---8-|---4---4---4---4-|---5---5---5---5-|---9---9---5---5-||
||-----------------|---4---4---4---4-|-----------------|-----------------||
||-----8-------8---|-----------------|-----------------|-----9-------6---||
||-6-------6-------|-6-------6-------|-4-------4-------|-7-------4-------||
||-----------------|-----4-------4---|-----4------4----|-----------------||



||---7---7---4---4-||
||---9---9---5---5-||
||-----------------||
||-----9-------8---||
||-7-------6-------||
||-----------------||