Ocena wątku:
  • 0 głosów - średnia: 0
  • 1
  • 2
  • 3
  • 4
  • 5
Rejtan, czyli raport ambasadora - Taby, Filmik na YT
#1
Witam,
nie mogę nigdzie znaleźć tabów do tego uwtoru. Jest tylko zapis nutowy i nie umiem go odczytać. Na yt znalazłem dwa filmiki z tym utworem grane na żywo. https://www.youtube.com/watch?v=PlLkJ34vDuA https://www.youtube.com/watch?v=36dOtoH2Sfg Czy mógłby ktoś podać takie taby, żeby zagrać jak na filmiku?
Odpowiedz
#2
Ja gram tak:

Intro:

E|-----------------------------------|-----------------------------------------------------------------------|-----------------------------------------------------------|
H|-----------------------------------|------1-------1--------1-------1-----1--------1-------1--------1---|------1-----1-------1------1-----1-------1------1-----1-|
G|-----------------------------------|------2-------2--------2-------2-----2--------2-------2--------2---|------2-----2-------2------2-----2-------2------2-----2-|
D|-----2---0----1-----2----0---1---|-----------2------0--------1--------------2-------0--------1--------|---------2--------------2-------------2-------------2----|
A|-0---------------0-----------------|--0--------------------------------0---------------------------------|--0--------------0-------------0--------------0----------|
E|------------------------------------|----------------------------------------------------------------------|-----------------------------------------------------------|

Zwrotka pierwsza:

E|-----------------------------------------------------------------------|-----------------------------------------------------------------------|
H|-------1-------1--------1-------1--------0-------0------0-------0--|-------1-------1--------1-------1--------0-------0------0-------0--|
G|-------2-------2--------2-------2--------1-------1------1-------1--|-------2-------2--------2-------2--------1-------1------1-------1--|
D|------------2------0--------1----------------------------------------|------------2------0--------1----------------------------------------|
A|---0----------------------------------2------3--------2--------------|---0----------------------------------2------3--------2--------------|
E|---------------------------------------------------------------0------|---------------------------------------------------------------0------|

E|-----------------------------------------------------------------------|--------------------------------------------------------------------------0---|
H|-------1-------1--------1-------1--------0-------0------0-------0--|-------1-------1--------1-------1--------0-------0------0-------0------2---|
G|-------2-------2--------2-------2--------1-------1------1-------1--|-------2-------2--------2-------2--------1-------1------1-------1------0---|
D|------------2------0--------1----------------------------------------|------------2------3--------1--------------------------------------------2---|
A|---0----------------------------------2------3--------2--------------|---0----------------------------------2------3--------2-----------------0---|
E|---------------------------------------------------------------0------|---------------------------------------------------------------0----------0---|

Zwrotka druga:

E|------1---------1---------1-------1----------0-------0---------0-------0---|------1---------1---------1-------1----------0-------0---------0-------0---|
H|------3---------3---------3-------3----------0-------0---------0-------0---|------3---------3---------3-------3----------0-------0---------0-------0---|
G|-----------2----------4--------2---------1--------2--------1----------------|-----------2----------4--------2---------1--------2--------1----------------|
D|----0----------------------------------------------------------------2--------|----0----------------------------------------------------------------2-------|

E|------1---------1---------1-------1----------0-------0---------0-------0---|------1---------1---------1-------1--------------0------0------0--------|
H|------3---------3---------3-------3----------0-------0---------0-------0---|------3---------3---------3-------3-----------0---------1------0-------|
G|-----------2----------4--------2---------1--------2--------1----------------|-----------2----------4--------2-----------1------------2------1-------|
D|----0----------------------------------------------------------------2--------|----0----------------------------------------------------2------2-------|
A|-------------------------------------------------------------------------------|---------------------------------------------------------0------2-------|
E|-------------------------------------------------------------------------------|---------------------------------------0-----------------0------0-------|

Modyfikacja w zwrotce "Ponińskij wezwał straż...":

E|------1---------1---------3-------3----------0-------0---------0-------0---|-------1---------1---------3-------3----------0-------0---------0-------0--|
H|------3---------3---------3-------3----------0-------0---------0-------0--|-------3---------3---------3-------3----------0-------0---------0-------0---|
G|-----------2-----------------------------1--------2--------1----------------|------------2-----------------------------1--------2--------1----------------|
D|----0----------------------------------------------------------------2-------|----0----------------------------------------------------------------2--------|
A|--------------------------------3--------------------------------------------|---------------------------------3---------------------------------------------|
E|-----------------------3-----------------------------------------------------|------------------------3------------------------------------------------------|

Wstawka "Marsylianki" ("Trójbarwną wstążkę w czapce wzniósł..."):

E|--------------------------------------------------|---------------------------------------|
H|--------------------------------------3----0-----|------0-----------1-------------------|
G|-----------------0---0----2----2--------------0-|--0------0-------------2---------0---|
D|---0----0---0------------------------------------|--------------2--------------4--------|

Wstawka "Ukrainy" ("Skłócony naród, król niepewny..."):

E|-------------------0---0------------|-------------------------1-----1-----1----1-----0---------|
H|-------1-------1-----------3----1--|-----------0-------0----------------------------------3----|
G|---2--------2-----------------------|------0-------0--------------------------------------------|

To prawie wszystko. Nie wiem do końca czy dobrze, ale mniej więcej tak to ma wyglądać.
Pozdrawiam,
Aneta
Odpowiedz


Podobne wątki
Wątek: Autor Odpowiedzi: Wyświetleń: Ostatni post
  NUTY i TABY Przemek 46 15,747 11-26-2015, 01:11 AM
Ostatni post: Przemek
  Czerwcowy wicher przy kominku - czyli znowu akordy zerowe Eryk 4 1,583 08-05-2015, 10:44 AM
Ostatni post: kamzieli
  Jeszcze raz, czyli Epitafium dla jebaki MasximusDecimus 1 1,721 04-25-2014, 02:40 PM
Ostatni post: Stalker
  Obława - zagubiony filmik maurycy 1 895 07-21-2011, 08:55 PM
Ostatni post: DX
  Wyznanie Kalifa - taby Darkstorm 2 927 05-25-2011, 05:38 PM
Ostatni post: Hardii
  Wiwat, czyli o demokracji Aneta 0 561 12-18-2010, 12:47 PM
Ostatni post: Aneta
  Rondo czyli piosenka o kacu gigancie szary 10 1,827 02-16-2010, 07:39 AM
Ostatni post: Przemek
  Rejtan, czyli raport ambasadora i ballada wrześniowa Aneta 7 1,644 11-29-2009, 01:18 PM
Ostatni post: Jaśko
  Zegar – taby do przeglądu szary 7 1,293 07-27-2009, 03:56 AM
Ostatni post: szary
  Taby do dwóch piosenek superxana 6 1,278 11-15-2007, 09:14 PM
Ostatni post: superxana

Skocz do:


Użytkownicy przeglądający ten wątek: 1 gości